The Beatles | Come together

Tablature batterie
Version texte.
Vu 2162 fois
  • Currently 1.69/5

168. Note: 1.7/5 (68 votes ) Ouvrir la tab pour noter.

›› Tablature guitare
Version texte.
Vu 1316 fois
V Partition plus bas V

Tablature guitare basse
Version texte.
Vu 1240 fois
  • Currently 2.14/5

167. Note: 2.1/5 (57 votes ) Ouvrir la tab pour noter.


Tablature guitare / par :Klein Seb

166 Note: 1.9/5 (54 votes )

Partager cette partition Share |
Vidéos correspondantes
Loading...
Intro x4
 |--------------------|
 |--------------------|
 |--------------------|
 |--------------10----|
 |--------10h12----12-|
 |--10-10-------------|
http://www.ks-musique.com/The-Beatles-Come-together-Tablature-guitare-c114-p166.html
Verse (play it blues style)
 |-------------|
 |-------------|
 |-------------|x10
 |-------------|
 |-12-12-14-14-|
 |-10-10-10-10-|

 |---------|
 |---------|
 |---------|x3
 |---------|
 |-7-7-9-9-|
 |-5-5-5-5-|

Then
 |-----------|
 |-----------|
 |-----------|
 |-----------|
 |-7-7-9-9-5-|
 |-5-5-5-5-3-|

Chours
 |-------------------
 |-------------------
 |-444444------------
 |-444444-22---------
 |-222222-00-5555557-
 |-----------3333335-

Solo
 |--------------------------------------------
 |-10---1010-8----10---1010-8---------------10
 |------------10-------------9/10--8/9-8/9-7--
 |--------------------------------------------
 |--------------------------------------------
 |--------------------------------------------

Signaler un abus

Contacter l'auteur de cette partition

Pour contacter l'auteur de cette partition, vous devez être connecté.

Ajouter une partition(txt/pdf) "Come together"

Categorie:
Nom de la partition: (facultatif)
Saisir en format texte:


OU...
... télécharger un fichier:
(prioritaire si selectionné)
Votre e-mail
Mot de passe *
Recopiez le code:
Sécurité
Changer l'image
(* saisir votre mot de passe pour vous connecter, si vous n'avez pas de compte, il sera créé automatiquement).