The Beatles | Come together

Tablature batterie
Version texte.
Vu 2162 fois
  • Currently 1.69/5

168. Note: 1.7/5 (68 votes ) Ouvrir la tab pour noter.

Tablature guitare
Version texte.
Vu 1315 fois
  • Currently 1.91/5

166. Note: 1.9/5 (54 votes ) Ouvrir la tab pour noter.

›› Tablature guitare basse
Version texte.
Vu 1240 fois
V Partition plus bas V


Tablature guitare basse / par :Klein Seb

167 Note: 2.1/5 (57 votes )

Partager cette partition Share |
Vidéos correspondantes
Loading...
Gtr I (E A D G) - 'Standard'
http://www.ks-musique.com/The-Beatles-Come-together-Tablature-guitare-basse-c114-p167.html

 Intro
  Moderate Rock Q=84
 4/4
  Gtr I
  E E   E  E  +Q    Q     E E  S  S  E  +E  E  Q     E E  S  S  E  +Q    Q
|---------10-(10)-------|-----------10-(10)--------|-----------10-(10)-------|
|------------------12---|---------------------12---|--------------------12---|
|-5-5-/12---------------|-5-5-10h12----------------|-5-5-10h12---------------|
|-----------------------|--------------------------|-------------------------|


  E E  S  S  E  +E  E  Q
|-----------10-(10)--------|
|---------------------12---|
|-5-5-10h12----------------|
|--------------------------|


   Verse
    E E   E  E  +E  E  Q     E E   E  E  +E  E  Q
||----------10-(10)--------|---------10-(10)---------|
||o-------------------12---|-------------------12----|
||o-5-5-/12----------------|-5-5-/12-----------------|
||-------------------------|-------------------------|


  E E   E  E  +E  E  Q     E E   E  E  +E  E  Q     E E E  E  +E  E  Q
|---------10-(10)--------|---------10-(10)--------|----------------------|
|-------------------12---|-------------------12---|-------10-(10)--------|
|-5-5-/12----------------|-5-5-/12----------------|-0-0-------------12---|
|------------------------|------------------------|----------------------|


                         1.
  E E E  E  +E  E  Q     W          +E  E Q  H
|----------------------|----------|---------------|
|-------10-(10)--------|----------|---------------|
|-0-0-------------12---|----------|---------------|
|----------------------|-3--------|-(3)-----------|


  E E  S  S  E  +Q    Q     E E  S  S  E  +E  E  Q     E E  S  S  E  +Q    Q
|-----------10-(10)-------|-----------10-(10)--------|-----------10-(10)-------|
|--------------------12---|---------------------12---|--------------------12---|
|-5-5-10h12---------------|-5-5-10h12----------------|-5-5-10h12---------------|
|-------------------------|--------------------------|-------------------------|


                               2.
  E E  S  S  E  +E  E  Q       H.      Q    W
|-----------10-(10)---------||------------|------||
|---------------------12---o||------------|------||
|-5-5-10h12----------------o||------------|------||
|---------------------------||-3----------|------||


 Chorus
  E E E E E E E E   E E E E E E Q    E E  S  S  E  +Q    Q
|-----------------|----------------|-----------10-(10)--------|
|-----------------|----------------|--------------------12----|
|-2-2-2-2-2-2-0-0-|---------0------|-5-5-10h12----------------|
|-----------------|-3-3-3-3--------|--------------------------|


  E E  S  S  E  +E  E  Q     E E  S  S  E  +Q    Q
|-----------10-(10)--------|-----------10-(10)-------|
|---------------------12---|--------------------12---|
|-5-5-10h12----------------|-5-5-10h12---------------|
|--------------------------|-------------------------|


  E E  S  S  E  +E   a  E  a  E  E
|-----------10-(10)-10h12-10h12-10--||
|-----------------------------------||
|-5-5-10h12-------------------------||
|-----------------------------------||


 Verse
  E E   E  E  +E  E  Q     E E   E  E  +E  E  Q     E E   E  E  +E  E  Q
|---------10-(10)--------|---------10-(10)--------|---------10-(10)--------|
|-------------------12---|-------------------12---|-------------------12---|
|-5-5-/12----------------|-5-5-/12----------------|-5-5-/12----------------|
|------------------------|------------------------|------------------------|


  E E   E  E  +E  E  Q     E E E  E  +E  E  Q     E E E  E  +E  E  Q
|---------10-(10)--------|----------------------|----------------------|
|-------------------12---|-------10-(10)--------|-------10-(10)--------|
|-5-5-/12----------------|-0-0-------------12---|-0-0-------------12---|
|------------------------|----------------------|----------------------|


                          Chorus
  H.      Q    W           E E E E E E E E
|------------|----------||-----------------|
|------------|----------||-----------------|
|------------|----------||-2-2-2-2-2-2-0-0-|
|-3----------|----------||-----------------|


  E E E E E E Q    E E   E  E  +Q    Q     E E  S  S  E  +Q    S  E.
|----------------|---------10-(10)-------|-----------10-(10)--10h12---|
|----------------|-------------------12--|----------------------------|
|---------0------|-5-5-/12---------------|-5-5-10h12------------------|
|-3-3-3-3--------|-----------------------|----------------------------|


   Keyboard Solo                             Guitar Solo
    E E E E E E E E   E E E E E E E E         E E E E E E E E
||------------------|------------------||-||------------------|
||o-----------------|-----------------o||-||o-----------------|
||o-5-5-5-5-5-5-5-5-|-5-5-5-5-5-5-5-5-o||-||o-----------------|
||------------------|------------------||-||--5-5-5-5-5-5-5-5-|


  E E E E E E E E     E E   E  E  +Q    Q     E E   E  S  S  S  S  S  S  Q
|------------------||---------10-(10)-------|---------10h12p10h12-10h12-10--||
|-----------------o||------------------12---|-------------------------------||
|-----------------o||-5-5-/12---------------|-5-5-/12-----------------------||
|-5-5-5-5-5-5-5-5--||-----------------------|-------------------------------||


 Verse
  E E   E  E  +E  E  Q     E E   E  E  +E  E  Q     E E   E  E  +E  E  Q
|---------10-(10)--------|---------10-(10)--------|---------10-(10)--------|
|-------------------12---|-------------------12---|--------------------12--|
|-5-5-/12----------------|-5-5-/12----------------|-5-5-/12----------------|
|------------------------|------------------------|------------------------|


  E E   E  E  +E  E  Q     E E E  E  +E  E  Q     E E E  E  +E  E  Q
|---------10-(10)--------|----------------------|----------------------|
|-------------------12---|-------10-(10)--------|-------10-(10)--------|
|-5-5-/12----------------|-0-0-------------12---|-0-0--------------12--|
|------------------------|----------------------|----------------------|


                          Chorus
  H.      Q    W           E E E E E E E E
|------------|----------||-----------------|
|------------|----------||-----------------|
|------------|----------||-2-2-2-2-2-2-0-0-|
|-3----------|----------||-----------------|


  E E E E E E Q    E E  S  S  E  +Q    Q     E E  S  S  E  +E  E  Q
|----------------|-----------10-(10)-------|-----------10-(10)--------|
|----------------|---------------------12--|----------------------12--|
|---------0------|-5-5-10h12---------------|-5-5-10h12----------------|
|-3-3-3-3--------|-------------------------|--------------------------|


                                                           Outro
  E E  S  S  E  +Q    Q     E E  S  S  E  +Q    S  S  E     E E E E E E E E
|-----------10-(10)-------|-----------10-(10)--12-10-12--||-----------------|
|--------------------12---|------------------------------||-----------------|
|-5-5-10h12---------------|-5-5-10h12--------------------||-5-5-5-5-5-5-5-5-|
|-------------------------|------------------------------||-----------------|


  a E E E E E E a E a E     a E E E E E E a E a E   a E E E E E E a E a E 10x
|-----------------------||------------------------|------------------------||
|-----------------------||o-----------------------|-----------------------o||
|-4h5-5-5-5-5-5-4h5-4h5-||o-4h5-5-5-5-5-5-4h5-4h5-|-4h5-5-5-5-5-5-4h5-4h5-o||
|-----------------------||------------------------|------------------------||

Signaler un abus

Contacter l'auteur de cette partition

Pour contacter l'auteur de cette partition, vous devez être connecté.

Ajouter une partition(txt/pdf) "Come together"

Categorie:
Nom de la partition: (facultatif)
Saisir en format texte:


OU...
... télécharger un fichier:
(prioritaire si selectionné)
Votre e-mail
Mot de passe *
Recopiez le code:
Sécurité
Changer l'image
(* saisir votre mot de passe pour vous connecter, si vous n'avez pas de compte, il sera créé automatiquement).